Intro
G|---------|---------|---------| I guess I should explain how I write
D|---------|---------|---------| slides.  7/0 means that you play the
A|---7-7/0-|---7-7/0-|---7-7/0-| note on the 7th fret, and slide it
E|-0-------|-0-------|-0-------| to the 0th fret (open string).
G|-9-7-------------------| This part here isn't exact, but it's close.
D|-----9-5---------------|
A|---------7-7-5---------|
E|---------------7-7-6-5-|
G|-------------------------|-------------------------|
D|-----------0-0---0-------|-----------0-0---0-------|
A|---------2-----2---2-----|---------2-----2---2-----|
E|-0-0-3h4-------------3-0-|-0-0-3h4-------------3-0-|
G|-------------------------|-------------------------|
D|-2---------0-0---0-------|-----------0-0---0-------|
A|---------2-----2---2-----|---------2-----2---2-----|
E|---0-3h4-------------3-0-|-0-0-3h4-------------3-0-|
G|---------|---------|---------|-2-------|---------|
D|---------|---------|-3-3-5-5-|---------|---------|
A|---------|-3-3-5-5-|---------|---------|-----3-5-|
E|-3-3-5-5-|---------|---------|---------|---------|
G|-------------------------|-------------------------|
D|-----------0-0---0-------|-----------0-0---0-------|
A|---------2-----2---2-----|---------2-----2---2-----|
E|-0-0-3h4-------------3-0-|-0-0-3h4-------------3-0-|
Verse
G|-----------------| These are triplets, but you only play the first
D|-----------------| and third beat of each.  Repeat this over and
A|-----------------| over throughout the verse.
E|-0-0-0-0-0-0-0-0-|
Chorus 1
G|---------|---------|-------------------------|
D|---------|---------|-----------0-0---0-------|
A|---------|-3-3-5-5-|---------2-----2---2-----|
E|-3-3-5-5-|---------|-0-0-3h4-------------3-0-|
G|---------|---------|-------------------------|
D|---------|---------|-----------0-0---0-------|
A|---------|-3-3-5-5-|---------2-----2---2-----|
E|-3-3-5-5-|---------|-0-0-3h4-------------3-0-|
Play the Verse section here
Chorus 2
G|---------|---------|-------------------------|
D|---------|---------|-----------0-0---0-------|
A|---------|-3-3-5-5-|---------2-----2---2-----|
E|-3-3-5-5-|---------|-0-0-3h4-------------3-0-|
G|---------|---------|---------|-2-------|---------|
D|---------|---------|-3-3-5-5-|---------|---------|
A|---------|-3-3-5-5-|---------|---------|-----3-5-|
E|-3-3-5-5-|---------|---------|---------|---------|
Solo
G|-------------------------|-------------------------|
D|-----------0-0---0-------|-----------0-0---0-------|
A|---------2-----2---2-----|---------2-----2---2-----|
E|-0-0-3h4-------------3-0-|-0-0-3h4-------------3-0-|
G|-------------------------|-------------------------|
D|-2---------0-0---0-------|-----------0-0---0-------|
A|---------2-----2---2-----|---------2-----2---2-----|
E|---0-3h4-------------3-0-|-0-0-3h4-------------3-0-|
G|---------| Repeat this a bunch.
D|---------|
A|-2-2-2-2-|
E|---------|
G|-----------| Then after you play this, play the entire solo section
D|-----0-0-2-| again, then play the next part.
A|-2-3-------|
E|-----------|
G|-------------------------|-------------------------|
D|-----------0-0---0-------|-----------0-0---0-------|
A|---------2-----2---2-----|---------2-----2---2-----|
E|-0-0-3h4-------------3-0-|-0-0-3h4-------------3-0-|
Play the Verse section here
Play the Chorus 2 section here
Outro
G|-------------------------| Repeat this last riff 6 times.
D|-----------0-0---0-------|
A|---------2-----2---2-----|
E|-0-0-3h4-------------3-0-|
	  

Chord Aerosmith - Some old song and dance