AVRIL LAVIGNE- WHO KNOWS
INTRO: SOLINHO     2X
                 Em  C  G  D
hide this tab
SOLINHO:
e----------------------0-2-------------------2----------
B---3---1-0----0--------------3----1-0---0---3----------
G--0-0-0------0--0---0------0--0--0-----0-0--2----------
D-2----------------0-------2-----------------0----------
A-----3-----2--------------------3----2-----------------
E-------------------------------------------------------
Em           C        G      D
Why do you look so familiar
Em       C                 G                D
I could swear that I have seen your face before
Em        C                   G       D
I think I like that you seem sincere
Em          C               G                     D
I think I'd like to get to know you a little bit more
Am
  I think there's something more
B C
  Life's worth living for
G
Who knows what could happen
C
Do what you do
Just keep on laughing
G
One thing's true
                            C
There's always a brand new day
Am         B  C                  Em  C  G  D
I'm gonna live today like it's my last day  2x
Em           C               G       D
How do you always have an opinion
Em              C                G                D
And how do you always find the best way to compromise
Em        C        G        D
We don't need to have a reason
Em             C        G              D
We don't need anything we're just wasting time
CHORUS 2X
ESSA PARTE ? S? BATERIA
Find yourself
'Cause I can't find you
Be yourself
Who are you?
Find yourself
'Cause I can't find you
Be yourself
Who are you?
CHORUS 1x s? com a bateria
   G
So you go and make it happen
C
Do your best
Just keep on laughing
      G
I'm telling you
                            C
There's always a brand new day
CHORUS 1x
GUITARRA 2 - RIFF COM DISTOR??O
hide this tab
e------------------------------
B-----------------------------
G--0------5-----4-----2--------     2x
D--2--5---5-5---5-5---0--4-5---
A--2------3-----5--------------
E---------------3--------------
	  

Chord Avril Lavigne - Who Knows