Post Chorus: Acoutic Guitar Solo
e|----------------------------
B|-4/5-75-4-5-4--------------
G|---------------4/6-6--------
D|----------------------9p8---
A|----------------------------
E|----------------------------
Guitar 2: Solo (x means the number of times plucked)
e|-9(x3)-9----------------------------------------------12(x3)-11-
B|------------------------------------------------11-11-----------
G|-----------------8-9-9h11p9-8-8h9p8----------8h9----------------
D|----------11(x3)--------------------9-8-9-11--------------------
A|----------------------------------------------------------------
E|----------------------------------------------------------------
e|------------------
B|-14-12-12/11------
G|---------------11-
D|------------------
A|------------------
E|------------------
	  

Chord Avril Lavigne - You Never Satisfy Me