(intro)
C#|-------0------0------0-------------0---5~-|-------0------0-------0-------------0------|
G#|-----3----3--------6---6-------------6-6~-|-----3----3---------6---6-------------6----|
E |----2-------------5-------5-------5--------|---2--------------5-------5-------5-----5~-|
B |--0----------0--------------0---7----------|-0----------0---0-----------0---7----------|
F#|------------------------------------------|-------------------------------------------|
B |------------------------------8------------|------------------------------8------------|
(verse)
C#|-------0------0------0-------------0---5~-|-------0------0-------0-------------0------|
G#|-----3----3--------6---6-------------6-6~-|-----3----3---------6---6-------------6----|
E |----2-------------5-------5-------5--------|---2--------------5-------5-------5-----5~-|(2x)
B |--0----------0--------------0---7----------|-0----------0---0-----------0---7----------|
F#|------------------------------------------|-------------------------------------------|
B |------------------------------8------------|------------------------------8------------|
(pre-Chorus)
C#|-0~---0-----00---|-0~---0-----00---|-0~---0-----00----0~-|
G#|-6~-----6---6666-|-6~-----6---6666-|-6~-----6---6666--6~-|
E |--5~-------5-5555-|-5~-------5-5555-|-5~-------5-5555--5~-|
B |--7~---------7777-|-7~---------7777-|-7~---------7777--7~-|
F#|-x----------xxxx-|-x----------xxxx-|-x----------xxxx-----|
B |--7~-7-------777x-|-8~-8-------888x-|-7~-7-------88xx-----|
(Chorus)
C#|-------------|--------------|-------------|-------------|
G#|-------------|--------------|-------------|-------------|
E |----3-3-333-3-|-22-2-222-22--|-5-5-555-55--|-------------|
B |--/-3-3-333-3-|-33-3-333-330-|-3-3-333-330-|-2-2-222-220-|
F#|-/-1-1-111-1-|-00-0-000-000-|-3-3-333-330-|-3-3-333-330-|
B |--/-----------|------------0-|-3-3-333-330-|-5-5-555-550-|
C#|-------------|--------------|----------------|
G#|-------------|--------------|----------------|
E |----3-3-333-3-|-22-2-222-22--|-5-5-555-55-----|
B |----3-3-333-3-|-33-3-333-330-|-3-3-333-330-2~-|
F#|---1-1-111-1-|-00-0-000-000-|-3-3-333-330-3~-|
B |--------------|------------0-|-3-3-333-330-5~-|
(repeat intro)
(repeat verse)
(repeat pre-Chorus)
(repeat Chorus)
(bridge)
(guitar 1)
C#|-13~--12------15--13------12-----||
G#|---------14~---------14~-----14~-||
E |----------------------------------||
B |----------------------------------||
F#|---------------------------------||
B |----------------------------------||
                                   ||
(guitar 2)                         ||
C#|---------------------------------||
G#|---------------------------------||
E |----7-----------------------------||
B |------(32x/32 Times!)-------------||
F#|---------------------------------||
B |--0-------------------------------||
C#|--------------------------------------------------------------------------------------|
G#|--------------------------------------------------------------------------------------|
E |-------14~-14-1414?12--1111/12-111111/--------10-10-101010-1010--5-5-------------------|
B |--77---x---x--x-x-0-x--x-x--x--x-x-x-/--0-7---8--8--8-8-8--8-8-0-3-330-22-20-----------|
F#|-5500-12~-12-12120-10-9-9/-10-9-9-9-/--0-7---8--8--8-8-8--8-8-0-3-330-33-30--------0~-|
B |----00------------0---------------------0-7---8--8--8-8-8--8-8-0-3-330-55-50(1)b3r1-0~-|
(guitar 1)
C#|-13~--12------15--13------12-----||
G#|---------14~---------14~-----14~-||
E |----------------------------------||
B |----------------------------------||
F#|---------------------------------||
B |----------------------------------||
                                   ||
(guitar 2)                         ||
C#|---------------------------------||
G#|---------------------------------||
E |----7-----------------------------||
B |------(32x/32 Times!)-------------||
F#|---------------------------------||
B |--0-------------------------------||
(repeat Chorus)
(rhythm Part For The Solo)
C#|-------------|--------------|-------------|-------------|
G#|-------------|--------------|-------------|-------------|
E |----3-3-333-3-|-22-2-222-22--|-5-5-555-55--|-------------|(2x)
B |--/-3-3-333-3-|-33-3-333-330-|-3-3-333-330-|-2-2-222-220-|
F#|-/-1-1-111-1-|-00-0-000-000-|-3-3-333-330-|-3-3-333-330-|
B |--/-----------|------------0-|-3-3-333-330-|-5-5-555-550-|
C#|--------------|
G#|--------------|
E |--3-3-333-3-2~-|
B |--3-3-333-3-3~-|
F#|-1-1-111-1-0~-|
B |---------------|
(outro)
C#|-------0------0------0-------------0---5~-|-------0------0-------0-------------0------|
G#|-----3----3--------6---6-------------6-6~-|-----3----3---------6---6-------------6----|
E |----2-------------5-------5-------5--------|---2--------------5-------5-------5-----5~-|
B |--0----------0--------------0---7----------|-0----------0---0-----------0---7----------|
F#|------------------------------------------|-------------------------------------------|
B |------------------------------8------------|------------------------------8------------|
	  

Chord Creed - A Thousand Faces