KORN
All want a single
INTRO:
|----------|
|----------|
|--1-0-----|
|----------| x 7
|------------------------|
|------------------------|
|--0-0-3-3-3-3-3-1-2-----|
|------------------------| x 4
|--------------------|
|--------------------|
|---1-0-0-0---0-1-1--|
|--------------------| x 11
|-------------------------|
|------------2-0-2--------|
|----0-1-3-3-------3-1----|
|-------------------------| x 4
	  

Chord Korn - all want a single