tuning, standard Korn
A  D  G  C  F  A  D
7 string
Intro/1st part of verse
(palm muted)
D|---------------------------
A|---------------------------
F|---------------------------
C|------1-1-----1-1------2-2-
G|--1-1-----1-1------1-1-----
D|---------------------------
A|---------------------------
2nd part of verse
D|---------------------------
A|---------------------------
F|----3------4---1-----------
C|---------------------------
G|--1----2-------------------
D|---------------------------
A|---------------------------
3rd part -VEEERY heavy phaser
D|---------------------------
A|---------------------------
F|----------------------------------
C|------8-8--6-6----6-6---8-8--6----
G|------8-8--6-6----6-6---8-8--6----
D|-0-0--6-6--4-4--0-4-4---6-6--4----
A|----------------------------------
Pre-chorus
D|--------------------------------------------
A|--------------------------------------------
F|----------------------------6--6--6--6--8-8-
C|---8-8-8-8--6-6-6-6--8-8-8--6--6--6--6--8-8-
G|---8-8-8-8--6-6-6-6--8-8-8--4--4--4--4--6-6-
D|---6-6-6-6--4-4-4-4--6-6-6------------------
A|--------------------------------------------
Chorus
D|-------------------------------------------
A|-------------------------------------------
F|------------8-8-6-6-6----------------------
C|---8-8-8-8--8-8-6-6-6--6-6-6-6--4-4-4-4----
G|---8-8-8-8--6-6-4-4-4--6-6-6-6--4-4-4-4----
D|---6-6-6-6-------------4-4-4-4--2-2-2-2----
A|-------------------------------------------
_______________________________________________________
Contribui??o: Carlos Alberto Bueno da Silva(cauguita@hotmail.com)
	  

Chord Korn - Alone I Break