TUNING: drop d (D,A,D,G,B,E)
     INTRO:
    E|------------------------------------------------------------------|
    B|------------------------------------------------------------------|
    G|---------------------------------------------------2--------------|
    D|-----------------------------------------------------0------------|
    A|--3--5-5-3-5-5--3-5-5-5b-5-5--3-5-5-3-5-5-3---0--------1-1b3-1-3--|
    D|--0--0-0-0-0-0--0-0-0-0--0-0--0-0-0-0-0-0-0-0---0--------------0--|
     Play this twice
    E|--------------------------------------------------------|
    B|--------------------------------------------------------|
    G|--------------------------------------------------3-----|
    D|-----------------------------------------------1--3--3--|
    A|--3--5-5-3-5-5--3-5-5-5b-5-5--3-5-5-3-5-5-3----1--1--3--|
    D|--0--0-0-0-0-0--0-0-0-0--0-0--0-0-0-0-0-0-0-0--1-----3--|
     Play this once
    E|--------------------------------------------|
    B|--------------------------------------------|
    G|--------------------------------------------|
    D|--------------------------------------------|
    A|--3--5-5-3-5-5--3-5-5-5b-5-5--3-5-5-3-5-5b--|
    D|--0--0-0-0-0-0--0-0-0-0--0-0--0-0-0-0-0-0---|
     VERSE:
     Play three times
    E|--------------------------------------------------------|
    B|--------------------------------------------------------|
    G|--------------------------------------------------3-----|
    D|-----------------------------------------------1--3--3--|
    A|--3--5-5-3-5-5--3-5-5-5b-5-5--3-5-5-3-5-5-3----1--1--3--|
    D|--0--0-0-0-0-0--0-0-0-0--0-0--0-0-0-0-0-0-0-0--1-----3--|
     Play this once
    E|------------------------------------------------------------------|
    B|------------------------------------------------------------------|
    G|---------------------------------------------------2--------------|
    D|-----------------------------------------------------0------------|
    A|--3--5-5-3-5-5--3-5-5-5b-5-5--3-5-5-3-5-5-3---0--------1-1/3-1-3--|
    D|--0--0-0-0-0-0--0-0-0-0--0-0--0-0-0-0-0-0-0-0---0--------------0--|
     CHORUS:
    E|---------------------------------------------------------|
    B|--1--1--------------------------------------3------------|
    G|--0--0----------0h2--------------------------------------|
    D|--2--0--3---0-------0-2-3-2-------0--3-2-0-----0--3-2-0--|
    A|--3--2--3---0----------------2-3-------------------------|
    D|--------3---0--------------------------------------------|
     1ST BRIDGE:
    E|-----5-3-2--------------------------------3--------|
    B|--3----------0-1-0---------------------------------|
    G|--2--------2-------2--------2-----4---4-5---5-4-2--|
    D|--0------------------4-5-4----4-5---5--------------|
    A|--0------------------------------------------------|
    D|---------------------------------------------------|
     2ND BRIDGE:
    E|-------------------|
    B|-------------------|
    G|--5--7--11--9--12--|
    D|-------------------|
    A|--3--5---9--7--10--|
    D|-------------------|
TRANSCRIBED BY: Joshua Page (Jpage92355@aol.com)
DATE: October 4, 1999
	  

Chord Creed - Are You Ready