7-string guitar tuned down a full step
Intro
D------------------------------------------------
A-----------0-0-0-0-0----------------------------
F-----------4-4-4-4-4----------------------------
C------------------------------------------------
G----------------------1-1-1-1-------------------
D-2-2--------------------------------------------
A-0-0--------------------------------------------
Verse same as intro
Burn! pain part
D-------------------------------------
A-------------------------------------
F-4-4-4-4-5-5-5-6-6-6-----------------
C-------------------------------------
G-2-2-2-2-3-3-3-4-4-4-----------------
D-------------------------------------
A-------------------------------------
Chorus
D------------------0--------0---------------------
A------------------0--------0---------------------
F------------------4--------4---------------------
C------------------2--------2---------------------
G------------------3--------3---------------------
D---------------------------1---------------------
A-0--0--0-----------------------------------------
Bridge
D----------------------------------
A----------12----------------------
F------------------11---------10---
C--9-------------------------------
G----------------------------------
D----------------------------------
A----------------------------------
Bridge 2 and outro
D-----------------------------
A-----------------------------
F-----------------------------
C-----------------------------
G-----------------------------
D-43-3--43-3--4-3-----------
A-21-1--21-1--2-1-----------
--------------------------------------------------------------
Transcribed By: SWaLLoW (F1D1LOU@aol.com)
7 string tuned down a full step.
Intro/Verse
D---------------------------------
A---------------------------------
F----------4-4-4-4-4--------------
C---------------------------------
G---------------------1-1-1-1-----
D-2-2-----------------------------
A-0-0-----------------------------
Right after first and second verse
C-4-5-6
G-2-3-4
Chorus
D-------------0-----0------------
A-------------0-----0------------
F-------------4-----4------------
C-------------3-----2------------
G-------------------1------------
D--------------------------------
A-0--0-0-------------------------
Bridge
A--------12----------------------
F----------------11--------10----
C--9-----------------------------
After Bridge also outro
D-4/3-4/3---4-3------------------
A-2/1-2/1---2-1------------------
This might be right if not check the one up top his might be better
but mine is sorta the same as him. Outro im not sure if thats right
once again check the top tab out.
PEACE!!!
_______________________________________________________
Contribui??o: big(thoughtless@com.br)
	  

Chord Korn - Ass Itch