Tuning:1 step down(A D G C F A D low to high)
b=bend
r=realease bend
/=slide up
=slide down
p=pull off
Vers
c|----------------------------
G|----------------------------
D|----------------------------
A|-3b-33-3b-33-3b-33-3b-3/1-1-
Fill before Pre-Chorus
Head(i think)
C|----------
G|----------
D|---------- Palm Muted
A|-3b-3/1-1-
Munky
C|-------
G|-------
D|-------
A|-3-5/1-
Pre-Chorus
C|------------------------------------------
G|------------------------------------------
D|-------------------------------6p5/4-4p3/2
A|-3b-5b55r--3b-5b/45b-3b-5b55r------------
Chorus
C|---xx5----xx5----xx5------------
G|---xx5----xx5----xx5-6p5/4-4p3/2
D|5b-xx3-5b-xx3-5b-xx3------------
A|3b-----3b-----3b----------------
Bridge after first Chourus
C|---------------------
G|---------------------  (this is most likely to be wrong)
D|-2------2------------
A|-0-----000---0-5-3b--
Bridge after second Chorus
d|10---11---/10---11---/10---1212121212
a|-x-X5-x-X3/-x-X5-x-X3/-x-X4-x-x-x-x-x All trembolo
F|-8----9---/-8----9---/-8---1515151515
C|----------------------------------------
Outro (clean with deep detune on the whammy pedal,
        or something similar on a other pedal)
d|----15---13---15---13-12-14-
a|-12-----13--12-----13---------
f|------------------------------ X2
C|------------------------------
vers
fill
pre-chorus
chorus
bridge1
vers
fill
pre-chorus
chourus
bridge1
vers
pre-chorus
chorus
outro
_______________________________________________________
Contribui??o: Carlos Alberto Bueno da Silva(cauguita@hotmail.com)
	  

Chord Korn - Beat It UpRight