Transcribed By Big (thoughtless@bol.com.br)
Tuned Down One Half Whole Step (D G C F A D)
(Intro Pt 1 and Verse)
d ||----------------------------------------|
A ||----------------------------------------|
F ||----------------------------------------|
C ||-1--0--1--0--1--0--1--0--0--1--0--4-----|
G ||----------------------------------------|
D ||----------------------------------------|
(With Flanger Effect)
(Intro Pt 2 and Chorus)
(Guitars 1 and 2)
d ||----------------------------|
A ||----------------------------|
F ||--8/7/8--7--8/7/8--11-------|
C ||--8/7/8--7--8/7/8--11-------|
G ||--6/5/6--5--6/5/6---9-------|
D ||----------------------------|
(note: / = Hammer on)
(With heavy Distortion)
(Bridge: The Part when Jon Goes..."I feel the shame...")
d ||----------------||----------------|
A ||----------------||----------------|
F ||-5--8--8--8--7--||-12--10--8--5---|
C ||-5--8--8--8--7--||-12--10--8--5---|
G ||-3--6--6--6--5--||-10---8--6--3---|
D ||----------------||----------------|
(With Heavy Distortion)
(Outro: Where Jon Sings..."Be there, for me")
d ||----7-----11--|
A ||----7-----11--|
F ||-5--7--5--11--|
C ||-5-----5------|
G ||-3-----3------|
D ||--------------|
_______________________________________________________
Contribui??o: Leandro de oliveira santos(thoughtless@bol.com.br)
	  

Chord Korn - Beg For Me