Tuning: 1 Step Down (A D G C F A D)
BRIDGE:
|-------------------------------|
|-------------------------------|
|-------------------------------|
|-------------------------------|
|-------------------------------|
|-------------------------------|
|-0-1-0-1-0--1-0--1-0-1-2-2-2-2-|
VERSE:
|--------------------------------|
|-----7--------5--------7------5-|
|---7----7---6---6----7----7--6--|
|-5--------4--------5--------4---|
|--------------------------------|
|--------------------------------|
|--------------------------------|
CHORUS:
|--------------------|
|------------0---0---|
|------------0---0---|
|----5---------------|
|-2--5--5--7---6---5-|
|-2--3--5--7---6---5-|
|-0-----3--5---4---3-|
INTERLUDE:
|--------------------------------------|
|-0-------0-------0-7--0-7--0-8--0-8--0-10-7---|
|--------------------------------------------7-|
|----------------------------------------------|
|----------------------------------------------|
|----------------------------------------------|
|----------------------------------------------|
INTERLUDE: (guitar 2) (^ - bend 1/2 step)
|-7^--7^-|
|--------|
|--------|
|--------|
|--------|
|--------|
|--------|
OUTRO CHORUS: (guitar 2) (plays behind guitar in original chorus)
|-------------------------------------------------------|
|-------------------------------------------------------|
|-11111111111112121111141414141414141412121212-/16-11-9-|
|--X-X-X-X-X-X-X-X-X-X-X-X-X-X-X-X-X-X-X-X-X-X---X--X-X-|
|--9-9-9-9-9-91010-9-9121212121212121210101010-/14--9-7-|
|-------------------------------------------------------|
|-------------------------------------------------------|
_______________________________________________________
Contribui??o: Big(thoughtless@bol.com.br)
	  

Chord Korn - Blame