Introdu??o
C|----------------|
G|----------------|
D|----7-3---------|
A|--4-----3-----3-|
Riff 1
C|---------------------------| /
G|---------------------------| | Riff em Slap
D|---------------------------| |
A|--0-2-0-3-0-2-0-3-6-6-6-6--|
Riff 2
                         (4x)
C|---------------------------| /
G|---------------------------| | Riff em Slap
D|--0--0-0-0--0-1--1-1-1--1--| |
A|---------------------------|
Pr?-Refr?o
                (4x)
C|------------------|
G|------------------|
D|-0-1-0-0-1-4------|
A|------------------|
Final
               (9x)
G|-----------------|
D|-----------------|
A|---7-----8-------|
D|-----4-5---5-4---|
Estrutura da M?sica:
Introdu??o
Riff 1
Riff 2
Pr?-Refr?o
Riff 2
Pr? Refr?o
Riff 1
Riff 2
Riff 1
Final
	  

Chord Korn - Blind (4 Cordas)