Intro -
Guitar 1 (bass)
--------------------------------------------------------------------------|
--------------------------------------------------------------------------|
--------------------------------------------------------------------------|
--------------------------------------------------------------------------|
--------------------------------------------------------------------------|
-0-0-0-0-0-0-0-0-0-0-0-0-0-0-0-0-0-0-0-0-0-0-0-0-0-0-0-0-0-0-0-0-0-0-0-0--|
Guitar 2 -
--------------------------------------------------------------------------|
--------------------------------------------------------------------------|
--------------------------------------------------------------------------|
--------------------------------------------------------------------------|
--------------------------------------------------------------------------|
-0-0-0-0-0-0-0-0-0-0-0-0-0-0-0-0-0-0-0-0-0-0-0-0-0-0-0-0-0-0-0-0-0-0-0-0--|
Guitar 1 (bass)
--------------------------------------------------------------------------|
--------------------------------------------------------------------------|
--------------------------------------------------------------------------|
--------------------------------------------------------------------------|
--------------------------------------------------------------------------|
-0-0-0-0-0-0-0-0-0-0-0-0-0-0-0-0-0-0-0-0-0-0-0-0-0-0-0-0-0-0-0-0-0-0-0-0--|
Guitar 2 -
--------------------------------------------------------------------------|
--------------------------------------------------------------------------|
--------------------------------------------------------------------------|
---7--7--7--------7--7-7--7-7/8---8--8--8----8-8/5---5-5----5--5--5---5---|
--------------------------------------------------------------------------|
--------------------------------------------------------------------------|
Guitar 1 (bass)
--------------------------------------------------------------------------|
--------------------------------------------------------------------------|
--------------------------------------------------------------------------|
--------------------------------------------------------------------------|
--------------------------------------------------------------------------|
-0-0-0-0-0-0-0-0-0-0-0-0-0-0-0-0-0-0-0-0-0-0-0-0-0-0-0-0-0-0-0-0-0-0-0-0--|
Guitar 2 -
--------------------------------------------------------------------------|
--------------------------------------------------------------------------|
--------------------------------------------------------------------------|
---5-5-5--5-5--5/8-----8--7---7-7-7-7--7--7--7----------------------------|
--------------------------------------------------------------------------|
-----------------------------------------------0-0-0-0-0-0-0-0-0-0-0-0-0--|
repeat several times (listen for exact)
Pre Verse (in at 0:47, distortion)
--------------------------------------------------------|
--------------------------------------------------------|
--------------------------------------------------------|
--------------------------------------------------------|
-------------15p12-------------13p12--------------------|
-13-12-12-12-------12-12-12-12-------13-12-10-10-12-10--|
Verse (in at 0:59, all palm muted)
--------------------------------------------------|
--------------------------------------------------|
--------------------------------------------------|
--------------------------------------------------|
-------------15-------------13--------------------|
-13-12-12-12----12-12-12-12----13-12-10-10-12-10--|
Chorus (in at 1:22)
------------------|------------------|
------------------|------------------|
------------------|------------------|
-0------------12--|--0--------0-0-0--|
-0-0-0-0-0-0--12--|--0-0-0-0--0-0-0--|
-0-0-0-0-0-0--12--|--0-0-0-0--0-0-0--|
* * * * * * * * * * * * *
------------------|-------------------------|
------------------|-------------------------|
------------------|-------------------------|
-0------------12--|--0------------12-13-10--|
-0-0-0-0-0-0--12--|--0-0-0-0-0-0--12-13-10--|
-0-0-0-0-0-0--12--|--0-0-0-0-0-0--12-13-10--|
* * * * * * * * * * * *
Verse in at 1:34
Chorus in at 1:58
Post Chorus - (in at 2:09, great riff!)
-----------------------------------------------------------------|
-----------------------------------------------------------------|
-----------------------------------------------------------------|
-13-12-10-12-10-10--13-13-10-12-10-10--13-13-10-12-10-10--0-0-0--|
-13-12-10-12-10-10--13-12-10-12-10-10--13-13-10-12-10-10--0-0-0--|
-13-12-10-12-10-10--13-12-10-12-10-10--13-13-10-12-10-10--0-0-0--|
* * *
-------------------------------------------------------------|
-------------------------------------------------------------|
-------------------------------------------------------------|
-13-12-10-12-10-10--13-13-10-12-10-10--13-13-10-12-10-10--0--|
-13-12-10-12-10-10--13-12-10-12-10-10--13-13-10-12-10-10--0--|
-13-12-10-12-10-10--13-12-10-12-10-10--13-13-10-12-10-10--0--|
*
-----------------------------------------------------------------|
-----------------------------------------------------------------|
-----------------------------------------------------------------|
-13-12-10-12-10-10--13-13-10-12-10-10--13-13-10-12-10-10--0-0-0--|
-13-12-10-12-10-10--13-12-10-12-10-10--13-13-10-12-10-10--0-0-0--|
-13-12-10-12-10-10--13-12-10-12-10-10--13-13-10-12-10-10--0-0-0--|
* * *
-----------------------------------------------------------------|
-----------------------------------------------------------------|
-----------------------------------------------------------------|
-13-12-10-12-10-10--13-13-10-12-10-10--13-13-10-12-10-10--0-0-0--|
-13-12-10-12-10-10--13-12-10-12-10-10--13-13-10-12-10-10--0-0-0--|
-13-12-10-12-10-10--13-12-10-12-10-10--13-13-10-12-10-10--0-0-0--|
* * *
then theres the god-awful long pick scrape, then something like this again...
Bridge (in at 2:34) Hey . . . All I want is whats real . . .
Guitar 1 (bass)
--------------------------------------------------------------------------|
--------------------------------------------------------------------------|
--------------------------------------------------------------------------|
--------------------------------------------------------------------------|
--------------------------------------------------------------------------|
-0-0-0-0-0-0-0-0-0-0-0-0-0-0-0-0-0-0-0-0-0-0-0-0-0-0-0-0-0-0-0-0-0-0-0-0--|
Guitar 2 -
--------------------------------------------------------------------------|
--------------------------------------------------------------------------|
--------------------------------------------------------------------------|
---7--7--7--7--7--7--7---7---7-8--8--8--8--8---8/5---5---5--5--5--5---5---|
---0--0--0--0--0--0--0---0---0-0--0--0--0--0---0-----0---0--0--0--0---0---|
-0-0--0--0--0--0--0--0---0---0-0--0--0--0--0---0-----0---0--0--0--0---0---|
Guitar 1 (bass)
--------------------------------------------------------------------------|
--------------------------------------------------------------------------|
--------------------------------------------------------------------------|
--------------------------------------------------------------------------|
--------------------------------------------------------------------------|
-0-0-0-0-0-0-0-0-0-0-0-0-0-0-0-0-0-0-0-0-0-0-0-0-0-0-0-0-0-0-0-0-0-0-0-0--|
Guitar 2 -
--------------------------------------------------------------------------|
--------------------------------------------------------------------------|
--------------------------------------------------------------------------|
---5------5----5/8--8--8--8---8--7--7--7--7--7---0--0----0--0--0--0--0-0--|
---0------0----0----0--0--0---0--0--0--0--0--0---0--0----0--0--0--0--0-0--|
---0------0----0----0--0--0---0--0--0--0--0--0---0--0----0--0--0--0--0-0--|
Then this (in at 2:57)
Please, help me find it please . . .
-----------------------------------------------------------------------|
-----------------------------------------------------------------------|
-14--14-14-14--14-14-14--14-14--15--15-15-15-15-15-15-15-15-15-15--12--|
-12--12-12-12--12-12-12--12-12--13--13-13-13-13-13-13-13-13-13-13--10--|
-12--12-12-12--12-12-12--12-12--13--13-13-13-13-13-13-13-13-13-13--10--|
-12--12-12-12--12-12-12--12-12--13--13-13-13-13-13-13-13-13-13-13--10--|
------------------------------------------------------------|
------------------------------------------------------------|
-12-12-12--12-12-12-12-12-12-12--15--14-14-14-14-14-14--17--|
-10-10-10--10-10-10-10-10-10-10--13--12-12-12-12-12-12-15--|
-10-10-10--10-10-10-10-10-10-10--13--12-12-12-12-12-12-15--|
-10-10-10--10-10-10-10-10-10-10--13--12-12-12-12-12-12-15--|
Then it goes into the chorus in at 3:09
Then it goes into the post-chorus (in at 3:33)
-----------------------------------------------------------------|
-----------------------------------------------------------------|
-----------------------------------------------------------------|
-13-12-10-12-10-10--13-13-10-12-10-10--13-13-10-12-10-10--0-0-0--|
-13-12-10-12-10-10--13-12-10-12-10-10--13-13-10-12-10-10--0-0-0--|
-13-12-10-12-10-10--13-12-10-12-10-10--13-13-10-12-10-10--0-0-0--|
* * *
-------------------------------------------------------------|
-------------------------------------------------------------|
-------------------------------------------------------------|
-13-12-10-12-10-10--13-13-10-12-10-10--13-13-10-12-10-10--0--|
-13-12-10-12-10-10--13-12-10-12-10-10--13-13-10-12-10-10--0--|
-13-12-10-12-10-10--13-12-10-12-10-10--13-13-10-12-10-10--0--|
*
-----------------------------------------------------------------|
-----------------------------------------------------------------|
-----------------------------------------------------------------|
-13-12-10-12-10-10--13-13-10-12-10-10--13-13-10-12-10-10--0-0-0--|
-13-12-10-12-10-10--13-12-10-12-10-10--13-13-10-12-10-10--0-0-0--|
-13-12-10-12-10-10--13-12-10-12-10-10--13-13-10-12-10-10--0-0-0--|
* * *
-----------------------------------------------------------------|
-----------------------------------------------------------------|
-----------------------------------------------------------------|
-13-12-10-12-10-10--13-13-10-12-10-10--13-13-10-12-10-10--0-0-0--|
-13-12-10-12-10-10--13-12-10-12-10-10--13-13-10-12-10-10--0-0-0--|
-13-12-10-12-10-10--13-12-10-12-10-10--13-13-10-12-10-10--0-0-0--|
* * *
Last chord -
-----|
-----|
-----|
--0--|
--0--|
--0--|
Tab Key -
* = palm mute
p = pull off
/ = slide up
 = slide down
_______________________________________________________
Contribui??o: (briscese.rox@bol.com.br)
	  

Chord Creed - Bullets