The tuning is STANDARD.
----3--------------------3------------------------3------3-------3------------
----3--------------------3------------------------3------3-------3------------
----0--------------------2------------------------0------0-------0------------
----0--------------------0------------------------2------0-------0------------
----2--------------------0------------------------3------2-------0------------
----3--------------------2------------------------------------------------------
 At times...
---3-------------3------------------------------3----------------3-----------------
---3-------------3------------------------------3----------------3-----------------
---0-------------2------------------------------0----------------0-----0-0-0--0-
---0-------------0------------------------------2----------------0-----0-0-0--0-
---2-------------0------------------------------3----------------2-----2h3p2-0-
---3-------------2-------------------------------------------------------------------
 A silver...
----3-------------3-------------------------------------3-----------------3------
----3-------------3-------------------------------------3-----------------3------
----0-------------2-------------------------------------0-----------------0------
----0-------------0-------------------------------------2-----------------0------
----2-------------0-------------------------------------3-----------------2------
----3-------------2---------------------------------------------------------------
    Whatever ...
-------3-----------------0-----------------------------3----------------------
-------3-----------------0-----------------------------3----------------------
-------0-----------------5-----------------------------0----------------------
-------0-----------------7-----------------------------2----------------------
-------2-----------------0-----------------------------3----------------------
-------3-----------------------------------------------------------------------
 knees, oh, ...
-3-----------------0--------------------------------0-------------------------
-3-----------------0--------------------------------3-------------------------
-0-----------------0--------------------------------0-------------------------
-2-----------------4--------------------------------2-------------------------
-3-----------------2--------------------------------3-------------------------
-------------------0-----------------------------------------------------------
 strong, ...
-3---------2------3---0-------------3--------------3-2-3--0-----0-------------
-3---------3------3---0-------------3--------------3-3-3--0-----0-------------
-0---------2------2---6-------------0--------------0-2-2--6-----0-------------
-0---------0------0---7-------------2--------------0-0-0--7-----2-------------
-2---------------------4--------------3--------------2-------4-----3-------------
-3----------------------------------------------------3--------------------------
 Children, don't ...
	  

Chord Creed - Don’t Stop Dancing (Acoustic)