TUNING: drop d
D  A  D  G  B  E
     INTRO/VERSE:
    E|------------------------------------|
    B|------------------------------------|
    G|-7-7-7-7/10-10-10-109-9-9-109-9-9-|
    D|------------------------------------|
    A|-5-5-5-5/8--8--8--8-7-7-7-8-7-7-7-|
    D|-0-0-0-0----0--0--0----0-0-0----0-0-|
    E|------------------------------------|
    B|------------------------------------|
    G|-7-7-7-7/10-10-10-10-9--------------|
    D|-----------------------6------------|
    A|-5-5-5-5/8--8--8--8------7----------|
    D|-0-0-0-0----0--0--0-----------------|
     CHORUS:
    E|-------------------------------------|
    B|-3-3-3-3-8-8-8-8-12-12-12-12-5-5-5-5-|
    G|-2-2-2-2-7-7-7-7-11-11-11-11-4-4-4-4-|
    D|-0-0-0-0-5-5-5-5-9--9--9--9--2-2-2-2-|
    A|-0-0-0-0-5-5-5-5-9--9--9--9--2-2-2-2-|
    D|-0-0-0-0-5-5-5-5-9--9--9--9--2-2-2-2-|
     BRIDGE:
    E|----------------|
    B|----------------|
    G|---------1098-|
    D|-0-0-7-0-1098-|
    A|-0-0-5-0-8-76-|
    D|-0-0-0-0--------|
     INTERLUDE:
    E|------------------------------------------|
    B|------------------------------------------|
    G|------------------------------------------|
    D|------------------------------------------|
    A|-0-15-14-0-13-14-0-13-12-0-10-12-0-0-0-15-|
    D|-0-15-14-0-13-14-0-13-12-0-10-12-0-0-0-15-|
	  

Chord Creed - In America