Tuned Down One Half Whole Step (DGCFAd)
(Intro and Verse)
(Guitar 1)
d ||-----2--3--2-----2--3--2-----------2--3--2-----2--3--2---------|
A ||---------------------------------------------------------------|
F ||--4-----------4-----------4--4--3-----------3-----------3--3--4|
C ||---------------------------------------------------------------|
G ||---------------------------------------------------------------|
D ||---------------------------------------------------------------|(Clean)
(Pre Chorus)
(Guitars 1 and 2)
d ||---------------------------------|
A ||---------------------------------|
F ||--4--6---------------------------|
C ||--4--6--5--3---------------------|
G ||--2--4--5--3---------------------|
D ||--------3--1---------------------|(Distortion)
(Chorus)
(Guitar 1)
d ||-----------------------------------|
A ||-----------------------------------|
F ||-5--4------------------------------|
C ||-5--4--4--3------------------------|
G ||-3--2--4--3------------------------|
D ||-------2--1------------------------|(Distortion)
(Guitar 2)
d ||--8--7-----------------------------|
A ||--------7--6-----------------------|
F ||-----------------------------------|
C ||-----------------------------------|
G ||-----------------------------------|
D ||-----------------------------------|(Distortion)
(This Is the little muted riff before the Outro)
(Guitars 1 and 2)
d ||-12-------10--12--7----------------|
A ||-----12-------------10-------------|
F ||-----------------------------------|
C ||-----------------------------------|
G ||-----------------------------------|
D ||-----------------------------------|
	  

Chord Korn - Let’s Get This Part Started