Tuning - Drop D
D  A  D  G  B  E
verse
e----------------------------------|------------------------------------|
b----3--2---2--0-------------------|---3--2---/5--3----------5----------|
g------------------4--2------------|------------------/4--2-------------|
d------------------------0--0------|-----------------------------0------|
a----2------0------------------0---|---2-------0--------------------0---|
d------------------5-----0---------|-------------------5-----0----------|
Chorus
e----------------------------------------|-------------------------------|
b----------------------------------------|-----------------3--2---2--0---|
g----0------4--2-------------------------|---0------4--2-----------------|
d-------4----------4---------4h5--4------|------4------------------------|
a-----------2---------0--------------0---|----------2------5------4------|
d----5-------------------0---------------|---5---------------------------|
e-------------------------------|---2--3---------|
b-----------------3--2---2--0---|---------2--3---|
g---0------4--2-----------------|----------------|
d------4------------------------|----------------|
a----------2------5------4------|---5-----2------|
d---5---------------------------|----------------|
e----------------------------------------|
b----------------------------------------|
g----0------4--2-------------------------|
d-------4----------4---------4h5--4------|
a-----------2---------0--------------0---|
d----5-------------------0---------------|
e----------------------------------------|----------------------------------------|
b----------------------------------------|----------------------------------------|
g----0------4--2-------------------------|----0------4--2-------------------------|
d-------4----------4---------4h5--4------|-------4----------4---------4h5--4------|
a-----------2---------0--------------0---|-----------2---------0--------------0---|
d----5-------------------0---------------|----5-------------------0---------------|
e-------------------------|
b-------------------------|
g-------------------------|
d---4/5--4----------------|
a-----------0--/4--5--0---|
d-------------------------|
Verse
e----------------------------------|------------------------------------|
b----3--2---2--0-------------------|---3--2---/5--3----------5----------|
g------------------4--2------------|------------------/4--2-------------|
d------------------------0--0------|-----------------------------0------|
a----2------0------------------0---|---2-------0--------------------0---|
d------------------5-----0---------|-------------------5-----0----------|
Chorus
e----------------------------------------|-------------------------------|
b----------------------------------------|-----------------3--2---2--0---|
g----0------4--2-------------------------|---0------4--2-----------------|
d-------4----------4---------4h5--4------|------4------------------------|
a-----------2---------0--------------0---|----------2------5------4------|
d----5-------------------0---------------|---5---------------------------|
e-------------------------------|---2--3---------|
b-----------------3--2---2--0---|---------2--3---|
g---0------4--2-----------------|----------------|
d------4------------------------|----------------|
a----------2------5------4------|---5-----2------|
d---5---------------------------|----------------|
e----------------------------------------|
b----------------------------------------|
g----0------4--2-------------------------|
d-------4----------4---------4h5--4------|
a-----------2---------0--------------0---|
d----5-------------------0---------------|
e-----------------------------------------|----------------------------------------|
b-----------------------------------------|----------------------------------------|
g----0------4--2--------------------------|----0------4--2-------------------------|
d-------4----------4---------4h5--/7------|-------4----------4---------4h5--4------|
a-----------2---------0---------------0---|-----------2---------0--------------0---|
d----5-------------------0----------------|----5-------------------0---------------|
e----------------------------------------|----------------------------------------|
b----------------------------------------|----------------------------------------|
g----0------4--2-------------------------|----0------4--2-------------------------|
d-------4----------4---------4h5--4------|-------4----------4---------4h5--/7-----|
a-----------2---------0--------------0---|-----------2---------0--------------0---|
d----5-------------------0---------------|----5-------------------0---------------|
e----------------------------------------|----------------------------------------|
b----------------------------------------|----------------------------------------|
g----0------4--2-------------------------|----0------4--2-------------------------|
d-------4----------4---------4h5--4------|-------4----------4---------4h5--4------|
a-----------2---------0--------------0---|-----------2---------0--------------0---|
d----5-------------------0---------------|----5-------------------0---------------|
                                           really quiet
e-----------------------------------------|----------------------------|
b-----------------------------------------|----------------------------|
g----0------4--2--------------------------|----0------4--2-------------|
d-------4----------4---------4h5--/7------|-------4----------4---------|
a-----------2---------0---------------0---|-----------2---------0------|
d----5-------------------0----------------|----5-------------------0---|
e----------------------------|
b----------------------------|
g----------------------------|
d---4/5--4---------------0---|
a-----------0--/4--5--0------|
d----------------------------|
Near the End A 2nd Guitar plays this on a loop
e--------------|
b---7h8--7-----|
g----------7---|
d--------------|
a--------------|
d--------------|
Even Closer to the End a 3rd guitar plays this on a loop
e---14h15--14-------|
b--------------15---|
g-------------------|
d-------------------|
a-------------------|
d-------------------|
_______________________________________________________
Contribui??o: (andersdias@hotmail.com)
	  

Chord Creed - Lullaby