The solo to My own Prison
by creed
tabbed by: Weezer Pillows
in STANDARD TUNING
|---------------------------|
|---------------------------|
|---------------------------|
|--------------15-15--------|x2
|--12~-0-12h13-------13-12--|
|---------------------------|
|-----------------------------|
|-----------------------------|
|-----------------------------|
|--------------15-15----15~---|
|--12~-0-12h13-------13-------|
|-----------------------------|
~ - let ring
h - hammer on
That's all folks!
have fun!
	  

Chord Creed - My Own Prison (solo)