Creed-My sacrifice
Riff 1:
|------------------------------------------------|
|---------3----------------------10--------10----|
|---4-------4-----4------------------------------|
|-----4-------4/--------------12----12--12----12-|
|-2-----2-------2------0---10--------------------|
|------------------------------------------------|
  D         D7M
|-2-2-2-2---2-2-2--------2-2---2-2-2----------------|
|-3-3-3-3p2-2-3-3--------3-3p2-2-2-2/7-7---7h8------|
|-2-2-2-2---2-2-2--------2-2---2-2-2/7-7---7--------|
|-0-0-0-0---0-0-0--------0-0---0-0-0---0---0------4-|
|-------------------------------------------------2-|
|---------------------------------------------------|
  Bm	        G9
|------------------------------------------------|
|---------3----------------------10--------10----|
|---4-------4-----4------------------------------|
|-----4-------4/--------------12----12--12----12-|
|-2-----2-------2------0---10--------------------|
|------------------------------------------------|
Riff 2:
  D   D7M
|----------------------------|
|----------------------------|
|-7p6-6-6-6h7--7-6-h-7-6h7p6?| (2x)
|-7---7-7-7----7-7-----7-----|
|-5---5-5-5----5-5-----5-----|
|----------------------------|
  Bm                      G
|----------------------------|
|----3-----------------------|
|-4--4-------------------/12-|
|-4--4-------------------/12-|
|-2--2-------------------/10-|
|----------------------------|
Intro:
Riff 1
Riff 2
Riff 2
  Hello my friend we meet again
  It?s been a while where should
  We begin Feels like forever
Riff 2
  Within my heart are memories
  Of perfect love that you gave to me
  Oh I remember
Refr?o distorcido:
                D           A      Bm           G
  When you are with me, I?m free, I?m careless I believe
|--------------------------------------------------------|
|--------------------------------------------------------|
|---------------7-----------6---------4-----------/12----|
|---------------7-----------7---------4-----------/12----|
|---------------5-----------4---------2-----------/10----|
|--------------------------------------------------------|
  F             D             A             Bm          G
  Above all the others, we?ll fly, this brings tears to my eyes
|------------------------------------------------------------------|
|------------------------------------------------------------------|
|-10------------7-------------6----------------4----------/12------|
|-10------------7-------------7----------------4----------/12------|
|-8-------------5-------------4----------------2----------/10------|
|------------------------------------------------------------------|
        Riff 2
My sacrifice
Riff 2
  We?ve seen our share of ups and downs
  Oh, how quickly life can turn around
  In an instant
Riff 2
  It feels so good to reunite
  Within yourself and within your mind
  Let?s find peace there
Refr?o distorcido
D D7M D D7M
  I just want to say hello again
D D7M D D7M                     C#m7(13)    D
  I just want to say hello again
Refr?o limpo:
                D             A      Bm           G
  When you are with me,   I?m free, I?m careless I believe
|---------------2-----2h3-2--------------------------------|
|---------------3-----3---3---5---------3------------------|
|---------------2-----2---2---6---------4-----------/12----|
|---------------0-----0---0---7---------4-----------/12----|
|-----------------------------4---------2-----------/10----|
|----------------------------------------------------------|
                D               A             Bm          G
  Above all the others,   we?ll fly, this brings tears to my eyes
|---------------2-----2h3-2---------------------------------------|
|---------------3-----3---3-----5----------------3----------------|
|-10------------2-----2---2-----6----------------4----------/12---|
|-10------------0-----0---0-----7----------------4----------/12---|
|-8-----------------------------4----------------2----------/10---|
|-----------------------------------------------------------------|
Refr?o distorcido
D D7M D D7M
  I just want to say hello again
D D7M D D7M                     C#m7(13)    D
  I just want to say hello again
D  D4  D  A  Bm  G
   A   Bm    C#m7(13)   D     D7M    D4    G    G9
|------------------6-------2-----2------3----------------|
|--5------3--------5-------3-----2------3-----------10---|
|--6-6----4-4------4-------2-7---2-6----2-----12----10---|
|--7-7----4-4------6-------0-7---0-7----0-----12----12---|
|--4-4----2-2------4---------5-----5----------10----10---|
|--------------------------------------------------------|
	  

Chord Creed - My sacrificec(Acoustic)