TUNING: drop d
D  A  D  G  B  E
     INTRO/VERSE:
    E|------------------|
    B|------------------|
    G|--8~------7~------|
    D|------8~------7~--|
    A|------------------|
    D|------------------|
     CHORUS:
    E|-----------------------------------------|
    B|-----------------------------------------|
    G|------------8~------8-8-----7~------7-7--|
    D|--0-0--0-0--6~--0-0-8-8-0-0-5~--0-0-7-7--|
    A|--0-0--0-0------0-0-6-6-0-0-----0-0-5-5--|
    D|--0-0--0-0------0-0-----0-0-----0-0------|
        pm.  ...      ...     ...     ...
    E|----------------------------------------------|
    B|----------------------------------------------|
    G|------------8~------8-8-----7~--7~------------|
    D|--0-0--0-0--6~--0-0-8-8-0-0-5~------0-0--0-0--|
    A|--0-0--0-0------0-0-6-6-0-0---------0-0--0-0--|
    D|--0-0--0-0------0-0-----0-0---------0-0--0-0--|
        pm.  ...      ...     ...         ........
    E|--------------------------------------------|
    B|--------------------------------------------|
    G|--8~------8-8-----7~------7-7------7-----7--|
    D|--6~--0-0-8-8-0-0-5~--0-0-7-7--0-0-0-0-0-0--|
    A|------0-0-6-6-0-0-----0-0-5-5--0-0---0-0----|
    D|------0-0-----0-0-----0-0------0-0---0-0----|
            pm.     ...     ...      ...   ...
    E|-------------------------|
    B|-------------------------|
    G|--8~------8-8-----7~--7--|
    D|--6~--0-0-8-8-0-0-5~--7--|
    A|------0-0-6-6-0-0-----5--|
    D|------0-0-----0-0--------|
            pm.     ...
     1ST BRIDGE:
    E|------------------------------------------------------------|
    B|------------------------------------------------------------|
    G|------------------------------------------------------------|
    D|--4-5--7--7/87--4-5-7--7/87--4-5-7--7/87--5-5-4-4h5p4p0--|
    A|------------------------------------------------------------|
    D|------------------------------------------------------------|
     2ND BRIDGE:
    E|--------------------------------------------------------------------------|
    B|--------------------------------------------------------------------------|
    G|--11-12-12-14-14h15p14--11-12-12-14-14h15p14--11-12-12-14-14h15p14-11-12--|
    D|--------------------------------------------------------------------------|
    A|--------------------------------------------------------------------------|
    D|--------------------------------------------------------------------------|
    E|-------------------|
    B|-------------------|
    G|--12-12-12-12-12--|
    D|-------------------|
    A|-------------------|
    D|-------------------|
     3RD BRIDGE:
    E|-----------------------------------------------------------------------------|
    B|-----------------------------------------------------------------------------|
    G|--11-12-14-14/1514--11-12-14-14/1514--11-12-14-14/1514-12-12-11-11/1211--|
    D|-----------------------------------------------------------------------------|
    A|---9-10-12-12/1312---9-10-12-12/1312---9-10-12-12/1312-10-10--9--9/10-9--|
    D|-----------------------------------------------------------------------------|
	  

Chord Creed - Never Die