(intro)
C#|-------------------------------|----------------------------|
G#|-------------------------------|----------------------------|
E |-------------------------------|----------------------------|
B |-------------------------------|----------------------------| (2x)
F#|---------3-------------3-1qb---|---------3------------------|
B |-3-5---5---5---5-3-5-----------|-3-5---5---5-3PH_bb5--------|
(clean verse)
C#|------------------|------------------|------------------|------------------|
G#|-8-----6----------|-8-----6----------|-8-----6----------|------------------|
E |-0--0--0--0--0----|-0--0--0--0-------|------------------|----------7--0----|
B |------------------|-------------0----|-8--8--8--0--0----|-8--0--7----------|
F#|------------------|------------------|------------------|------------------|
B |------------------|------------------|------------------|------------------|
(preChorus 1) (0:41)
C#|------------------|-----------18--18-18-18-18-18-----|
G#|-8-----8----------|-10-------------------------------|
E |-0--0--0--0--0----|-0----0----15--15-15-15-15-15-----|
B |------------------|----------------------------------|
F#|------------------|----------------------------------|
B |------------------|------------------------------12-|
(Chorus 2x)
C#|-------------------|-------------------|-----------------|------------------|
G#|-------------------|-------------------|-----------------|------------------|
E |-------------------|-------------------|-----------------|------------------|
B |-1-1-1---1-1---1---|-5---5---5-5---5---|-3---3---3---3---|-5---5---5---3-3--|
F#|-1-1-1---1-1---1---|-5---5---5-5---5---|-3---3---3---3---|-5---5---5---3-3--|
B |-1-1-1---1-1---1---|-5---5---5-5---5---|-3---3---3---3---|-5---5---5---3-3--|
(Chorus ending)
C#|-----------------|----------------|
G#|-----------------|----------------|
E |-----------------|----------------|
B |-1---1---1-1-----|-0--------------|
F#|-1---1---1-1-----|-0--------------|
B |-1---1---1-1-----|-0--------------|
(play verse riff again - but Guitar 2 plays chords at a lower volume)
C#|--------------|--------------|-------------|---------------|
G#|--------------|--------------|-------------|---------------|
E |--------------|--------------|-------------|---------------|
B |-5------------|-(5)----------|-1-----------|-3-------------|
F#|-5------------|-(5)----------|-1-----------|-3-------------|
B |-5------------|-(5)----------|-1-----------|-3-------------|
(preChorus 2) (1:40)
C#|------------------|-------------10---|
G#|-8-----8----------|-10----11---------|
E |-0--0--0--0--0----|-0--0-----10------|
B |------------------|------------------|
F#|------------------|------------------|
B |------------------|------------------|
(play Chorus again)
(play Intro during the next fast vocal part,
but Mark alternates playing a PH and normal note)
C#|-------------------------------|----------------------------|
G#|-------------------------------|----------------------------|
E |-------------------------------|----------------------------|
B |-------------------------------|----------------------------|
F#|---------3-------------3-1bb---|---------3----**------------|
B |-3-5---5---5---5-3-5-----------|-3-5---5---5-3PH_bb5--------|
(solo)
C#|----------------------------------|--------------------------|
G#|-5b6------------------------------|--------------------------|
E |-----5b6r5-3---5-3~---------------|--------------------------|
B |-------------5-------5p3-5PH_bb-3-|----5---------------------|
F#|----------------------------------|------5p3-----------------|
B |----------------------------------|----------5-3PH_bb5---/x-|
C#|----------------13-------10-----------|
G#|-0----5NH----------13b15----11-----11-|
E |-0----5NH---12-----------------12-----|
B |------------12------------------------|
F#|--------------------------------------|
B |--------------------------------------|
C#|---------15--------------15-----17-----------------|-13------11-------------|
G#|-15p13h15--13h15-17p13h15--13h15--13h15-13-15------|-14b15---12-------------|
E |----------------------------------------------15---|---------------3qb------|
B |---------------------------------------------------|--------------------5---|
F#|---------------------------------------------------|------------------------|
B |---------------------------------------------------|------------------------|
C#|----------------------------|-----------------------------------------10h13p10-13p17p13PH--|
G#|----------------------------|-11--------11--------11-10--10-11-10--10----------------------|
E |-3---5---3h4----------------|---12p10h12--12p10h12-----12--------10------------------------|
B |---5---5-----5p3--5tr3---8/-|--------------------------------------------------------------|
F#|----------------------------|--------------------------------------------------------------|
B |----------------------------|--------------------------------------------------------------|
C#|-(14)-13h14p13----------------------------------------------------|
G#|--------------11h13p11p9-11p9--------9----------------------------|
E |-----------------------------12p11h12-----------------------------|
B |--------------------------------------9h10h12p10p9----------------|
F#|--------------------------------------------------9h10h12p10p96~-|
B |------------------------------------------------------------------|
(play Entire Chorus Again 2x)
(ending Chorus solo (3:08) on repeat of Chorus riff)
C#|---------------------------------5h6-5h6--|
G#|-------------------4h5h7-/5h7h8-8---8-----|
E |---------7p5tr3h5h7-----------------------|
B |-3h5tr7p3---------------------------------|
F#|------------------------------------------|
B |------------------------------------------|
C#|-5h6-T10-5h6-T10-5h6-5h6-----------------------|-----------------------|
G#|----------------8---8---5h7h8-5h7h8------------|-----------------------|
E |-----------------------------------3h5h7-3h5h7-|-----------------------|
B |-----------------------------------------------|-5PH~~-3--------3------|
F#|-----------------------------------------------|--------5-3h5-5---5~~--|
B |-----------------------------------------------|-----------------------|
C#|----------------------------|-----------------------------10h13p10--10-|
G#|----------------------11----|-13TP-11TP---------13TP-11TP---------13---|
E |-----------3~----/12-----12-|--------------12TP------------------------|
B |-5~~---3h5------------------|------------------------------------------|
F#|----------------------------|------------------------------------------|
B |----------------------------|------------------------------------------|
C#|---------------------------------|---------------------------|------------------------|
G#|-13-14p13p11----11-----11--------|---------------------------|----------------------5-|
E |------------12~----12----12~----|---------------------------|-----------5p3-----5h7--|
B |---------------------------------|-1-----1----1-1--1--5-5~---|-5PH_bb-3h5-----5h8-----|
F#|---------------------------------|-1-----1----1-1--1---------|------------------------|
B |---------------------------------|-1-----1----1-1--1---------|------------------------|
C#|----------------------------|
G#|----------------------------|
E |----------------------------|
B |----------------------------|
F#|-6SH~~~~-------0------------|
B |---------------0------------|
(ending 4x)
C#|-------------------------------|
G#|-------------------------------|
E |-------------------------------|
B |-------------------------------|
F#|---------3-------------3-1qb---|
B |-3-5---5---5---5-3-5-----------|
KEY:
| ~   vibrato
| /   slide up
|    slide down
| h   hammer-on
| p   pull-off
| b   bend note
| r   release bend
| qb  quarter bend, bluesy sounding
| bb  tremelo bar bend
| PH  pinch harmonic,
| SH  slight harmonic (same note with slight harmonic overtone)
| x   Mute note
| T   Right-hand tapping
	  

Chord Creed - Overcome