TUNING: drop d
D  A  D  G  B  E
     INTRO:
    E|-------------------------------|
    B|-------------------------------|
    G|----------5--------3------3----|
    D|--3-3-3-3-5--0-1-1-3--1-1-3-0--|
    A|--3-3-3-3-3--0-1-1-1--1-1-1-0--|
    D|--3-3-3-3----0-1-1----1-1---0--|
    E|------------------------------|
    B|---------3--3-----3--3/43-0--|
    G|---------2--2-----2--2/32-0--|
    D|--0-0--0----0--0--------------|
    A|--0-0--0----0--0--------------|
    D|--0-0--0----0--0--------------|
    E|-------------------------------|
    B|-------------------------------|
    G|----------5--------3------3----|
    D|--3-3-3-3-5--0-1-1-3--1-1-3-0--|
    A|--3-3-3-3-3--0-1-1-1--1-1-1-0--|
    D|--3-3-3-3----0-1-1----1-1---0--|
    E|------------------------------|
    B|---------3--3-----3--3/43-0--|
    G|---------2--2-----2--2/32-0--|
    D|--0-0--0----0--0--------------|
    A|--0-0--0----0--0--------------|
    D|--0-0--0----0--0--------------|
    E|-------------------------------|
    B|-------------------------------|
    G|----------5--------3------3----|
    D|--3-3-3-3-5--0-1-1-3--1-1-3-0--|
    A|--3-3-3-3-3--0-1-1-1--1-1-1-0--|
    D|--3-3-3-3----0-1-1----1-1---0--|
    E|----------------------------------|
    B|----------------------------------|
    G|--10-----10-12-12h13p12----10-10--|
    D|--10--12-10-12-12h13p12-12-10-10--|
    A|------12----------------12--------|
    D|----------------------------------|
    E|-------------------------------|
    B|-------------------------------|
    G|----------5--------3------3----|
    D|--3-3-3-3-5--0-1-1-3--1-1-3-0--|
    A|--3-3-3-3-3--0-1-1-1--1-1-1-0--|
    D|--3-3-3-3----0-1-1----1-1---0--|
     INTERLUDE:
    E|--------------------------------|
    B|--------------------------------|
    G|--2-3-2p0---2-3-2p0-------------|
    D|----------3---------2--2-3-2-0--|
    A|--------------------------------|
    D|--------------------------------|
     VERSE:
    E|-----5----------------------------------------|
    B|---------3---------3----------------8------7--|
    G|------------0-2/3-----3p0-2-------8------7----|
    D|--------------------------------0------0------|
    A|----------------------------------------------|
    D|--0--------------------------0----------------|
     PRE-CHORUS:
     Play 4 times
    E|------------------------------|
    B|------10---10---10---10---10--|
    G|----8----8----8----8----8-----|
    D|--0---------------------------|
    A|------------------------------|
    D|------------------------------|
     Play this 4 times
    E|------------------------------|
    B|------10---10---11---10---11--|
    G|----8----8----8----8----8-----|
    D|--0---------------------------|
    A|------------------------------|
    D|------------------------------|
     1ST BRIDGE:
    E|------------------------------------------------------|
    B|------------------------------------------------------|
    G|------------------------------------------------------|
    D|--0-0-0--0--0-0-0--0---0-0-0--0--0-0-0--0---0-0-0--0--|
    A|--0-0-0--0--0-0-0--0---0-0-0--0--0-0-0--0---0-0-0--0--|
    D|--0-0-0--0--0-0-0--0---0-0-0--0--0-0-0--0---0-0-0--0--|
    E|------------------------------------------------------------|
    B|---------3-4--------------------3-4--------------------3-4--|
    G|---------2-3--------------------2-3--------------------2-3--|
    D|--0-0-0--0-1---0-0-0--0--0-0-0--0-1---0-0-0--0--0-0-0--0-1--|
    A|--0-0-0--0-1---0-0-0--0--0-0-0--0-1---0-0-0--0--0-0-0--0-1--|
    D|--0-0-0--0-1---0-0-0--0--0-0-0--0-1---0-0-0--0--0-0-0--0-1--|
    E|-----------------------------------------------------------------|
    B|-----------------------------------------------------------------|
    G|-----------------------------------------------------------------|
    D|--0-0-0--0--0-0-0--0000--0-0-0--0--0-0-0--0--0-0-0--0--0-0-0--0--|
    A|--0-0-0--0--0-0-0--0000--0-0-0--0--0-0-0--0--0-0-0--0--0-0-0--0--|
    D|--0-0-0--0--0-0-0--0000--0-0-0--0--0-0-0--0--0-0-0--0--0-0-0--0--|
     2ND BRIDGE:
    E|--5-5-5---------------|
    B|----------------------|
    G|---------0-2-3-3-3-0--|
    D|----------------------|
    A|----------------------|
    D|----------------------|
     3RD BRIDGE:
    E|-----------|
    B|--------3--|
    G|--5--3--2--| Strum Chords
    D|--3--1--0--|
    A|--3--1--0--|
    D|--3--1--0--|
     ENDING CHORDS:
    E|------------|
    B|------------|
    G|------------|
    D|--0-0-0--0--|
    A|--0-0-0--0--|
    D|--0-0-0--0--|
	  

Chord Creed - Say I