Creed
Six feet from the edge
Tabbed by:Matt Jones
------------------------6--13--------------
-------------------------------------------
----------2-----2--------------------------
------------------------------------12-----
-------6-----6-----------------------------
--2-4------------------------------------7-
That was only the intro and the verse, its the same.
Solo:
--------9---------7/14---------------------
----8--------11----------------------------
-7--------13-------------------------------
---------------------------14------------2 times
-------------------------------------------
-------------------------------------------
	  

Chord Creed - Six Feet From The Edge