E            A9     F#m5   B5
E|----------------------------------------|
B|---------------------------20-20--------|
G|-------------2-1-----4-1/2-------1/2-1--|
D|-2-4/6------------4---------------------|
A|--------2----0-0-----------22-22-2---2--|
E|-0-0----0------------2-2----------------|
      E           A9      F#m5
E|------------------------------------|
B|------------------------------------|
G|-------------2-1-----4--------------|
D|-2-4/6------------4-----------------|
A|--------2----0-0-------2-2/4-444----|
E|-0-0----0------------2-2-2---222----|
	  

Chord Creed - The Song You Sing