----------------------|-------------------|------|-------------------------|--
-7---7-8-10-10-11-10--|--13-11-10-8-10-8--|--11--|-------------------------|--
----------------------|-------------------|--10--|--8-7-5-5/7-8-7---8---8--|--
----------------------|-------------------|------|-------------------------|--
----------------------|-------------------|------|-------------------------|--
----------------------|-------------------|------|-------------------------|--
 Verse
----------------------|-------------------|------|----------------------------
-7---7-8-10-10-11-10--|--13-11-10-8-10-8--|--11--|----------------------------
----------------------|-------------------|--10--|----------------------------
----------------------|-------------------|------|----------------------------
----------------------|-------------------|------|----------------------------
----------------------|-------------------|------|----------------------------
----------------------------------------|-------------------------------------
-7---7-8-10-10-11-10---13-11-10-8-10-8--|-------------------------------------
----------------------------------------|-------------------------------------
----------------------------------------|-------------------------------------
----------------------------------------|-------------------------------------
----------------------------------------|-------------------------------------
----------------------|-------------------|------|----------------------------
-7---7-8-10-10-11-10--|--13-11-10-8-10-8--|--11--|--8-7-5-5/7-8-7---8---7--8--
----------------------|-------------------|--10--|----------------------------
----------------------|-------------------|------|----------------------------
----------------------|-------------------|------|----------------------------
----------------------|-------------------|------|----------------------------
  Pre-Chorus-"To rest our head on"
------------------------------------------------------------------------------
-7-7-7-7-7-7-7-7-7-7-7/8-8-8-8-8-8-8/10-10-10-10-106-6-6-6-6-6-6-6-6-6-6/8---
------------------------------------------------------------------------------
-4-4-4-4-4-4-4-4-4-4-4/5-5-5-5-5-5-5/-7--7--7--7--73-3-3-3-3-3-3-3-3-3-3/5---
-0-0-0-0-0-0-0-0-0-0-0-0-0-0-0-0-0-0--0--0--0--0--0-0-0-0-0-0-0-0-0-0-0-0-0---
-0-0-0-0-0-0-0-0-0-0-0-0-0-0-0-0-0-0--0--0--0--0--0-0-0-0-0-0-0-0-0-0-0-0-0---
 Chorus
------------------------------------------------------------------------------
-7-7-7-7-7-7-7-7-7-7-7--7/8--8-8-8-8-8-8-8-8-8-8--8/10--10-10-10--------------
------------------------------------------------------------------------------
-4-4-4-4-4-4-4-4-4-4-4--4/5--5-5-5-5-5-5-5-5-5-5--5/-7---7--7--7--------------
-0-0-0-0-0-0-0-0-0-0-0--0----0-0-0-0-0-0-0-0-0-0--0------0--0--0--------------
-0-0-0-0-0-0-0-0-0-0-0--0----0-0-0-0-0-0-0-0-0-0--0------0--0--0--------------
 "When all we have left is deceptive...so disconnected..."
------------------------------------------------------------------------------
-8-8-8-8-8-8-8-8-13-13-11-10-8-8-8-8/10-8-8-8-8-8-8-8-8-11-11-----------------
------------------------------------------------------------------------------
-5-5-5-5-5-5-5-5-10-10--8--7-5-5-5-5/-7-5-5-5-5-5-5-5-5--9--9-----------------
-0-0-0-0-0-0-0-0--0--0--0--0-0-0-0-0--0-0-0-0-0-0-0-0-0--0--0-----------------
-0-0-0-0-0-0-0-0--0--0--0--0-0-0-0-0--0-0-0-0-0-0-0-0-0--0--0-----------------
 "What is the truth now?"
--------------------------------------------------|---------------------------
-----8-7-5-5/7-8-7----------7-7-7-7-7-7-7----8-8--|---------------------------
--------------------------------------------------|---------------------------
-----5-4-2-2/4-5-4----------4-4-4-4-4-4-4----5-5--|---------------------------
-----0-0-0-0-0-0-0----------0-0-0-0-0-0-0----0-0--|---------------------------
-----0-0-0-0-0-0-0----------0-0-0-0-0-0-0----0-0--|---------------------------
 The go to chorus, after that play this:
------------------------------------------------------------------------------
-7b-----7-7-----7-8---8-8-8-8-8-8-8-8---13-13-11-10-8-10-8---8-8-8-8-8-8-8-8--
------------------------------------------------------------------------------
-4b-0---4-4-0-0-4-5---5-5-5-5-5-5-5-5---10-10--8-10-5--7-5---5-5-5-5-5-5-5-5--
------------------------------------------------------------------------------
-0--0---0-0-0-0-0-0---0-0-0-0-0-0-0-0----0--0--0--0-0--0-0---0-0-0-0-0-0-0-0--
 Chorus
------------------------------------------------------------------|-----------
-7-7-7-7-7-7-7-7-7-7-7--7/8--8-8-8-8-8-8-8-8-8-8--8/10--10-10-10--|-----------
------------------------------------------------------------------|-----------
-4-4-4-4-4-4-4-4-4-4-4--4/5--5-5-5-5-5-5-5-5-5-5--5/-7---7--7--7--|-----------
------------------------------------------------------------------|-----------
-0-0-0-0-0-0-0-0-0-0-0--0-0--0-0-0-0-0-0-0-0-0-0--0--0---0--0--0--|-----------
 "When all we have left is deceptive...so disconnected..."
---------------------------------------------------------------|--------------
-8-8-8-8-8-8-8-8-13-13-11-10-8-8-8-8/10-8-8-8-8-8-8-8-8-11-11--|--------------
---------------------------------------------------------------|--------------
-5-5-5-5-5-5-5-5-10-10--8--7-5-5-5-5/-7-5-5-5-5-5-5-5-5--9--9--|--------------
---------------------------------------------------------------|--------------
-0-0-0-0-0-0-0-0--0--0--0--0-0-0-0-0--0-0-0-0-0-0-0-0-0--0--0--|--------------
 "What is the truth now?.."
-------------------------------------------------|----------------------------
----8-7-5-5/7-8-7----------7-7-7-7-7-7-7----8-8--|----------------------------
-------------------------------------------------|----------------------------
----5-4-2-2/4-5-4----------4-4-4-4-4-4-4----5-5--|----------------------------
-------------------------------------------------|----------------------------
-------------------------------------------------|----------------------------
 Then the "tribal" interlude @5:20 Play 3x all palm muted
-------------|----------------------------------------------------------------
-------------|----------------------------------------------------------------
-------------|----------------------------------------------------------------
-5--7--8--7--|--5--7--8--7--10--8--7--5---------------------------------------
-------------|----------------------------------------------------------------
-------------|----------------------------------------------------------------
 Bridge in @5:47 "What is the truth now?.." The open strings are palm muted
---------------------------------|--------------------------------------------
-7-8-10-------8-10-11------11-8--|--------------------------------------------
---------------------------------|--------------------------------------------
-4-5--7--0-0--5--7--8--0-0--8-5--|--------------------------------------------
---------0-0-----------0-0-------|--------------------------------------------
-0-0--0--0-0--0--0--0--0-0--0-0--|--------------------------------------------
 Go back to chorus then play the bridge, and thats it.
_______________________________________________________
Contribui??o: (briscese.rox@bol.com.br)
	  

Chord Creed - Who?s Got My Back ?