hide this tab
e------------------------------|-----------------------------------------
B--0h1----1-----3-----1---1----|--0h1----1--3---1--1---------------------
G------0---0-----0-----0-------|------0---0--0---0-----------------------
D-------2---2-----2-----2------|-------0---0--0---0----------------------
A--3-----3---------------------|--2-----2--------------------------------
E------------------------------|-----------------------------------------
e------------------------------|-----------------------------------------
B--0h1----1---3---1----1-------|-----------------------------------------
G------2---2---2---2-----------|-----------------------------------------
D-------2---2---2---2----------|-----------------------------------------
A--0-----0---------------------|-----------------------------------------
E------------------------------|-------------------------------------
Intro:
C  G  Am  F
     C                G
Well I just heard the news today
    Am                F
It seems my life it? gonna to change,
   C               G
I closed my eyes, begin to pray
     Am                   F
Then tears of joy stream down my face
                F
{With arms wide open
                C
Under the sunlight
        G
Welcome to this place
              Am
I'll show you everything
                F
With arms wide open
     C
Wide open
               G
With arms wide open
     Am
Wide open}
     C               G
Well I don't know if I'm ready
   Am           F
To be the man I have to be
     C                            G
I'll take a breath, I'll take her by my side
   Am                    F
We stand in awe, we've created life
                F
With arms wide open
               C
Under the sunlight
        G
Welcome to this place
              Am
I'll show you everything
                F
With arms wide open
           C
Now everything has changed
               G
I'll show you love
              Am
I'll show you everything
               C
With arms wide open
     G
Wide open
               Am
With arms wide open
     F
Wide open
Solo
C  G  Am  F
          C
If I had just one wish
     G
Only one demand
           Am
I hope he's not like me
          F
I hope he understands
            C
That he can take this life
            G
And hold it by the hand
           Am
And he can greet the world
               F
With arms wide open...
                F
With arms wide open
               C
Under the sunlight
        G
Welcome to this place
              Am
I'll show you everything
                C
With arms wide open
     G
Wide open
               Am
With arms wide open
     C
Wide open
	  

Chord Creed - With Arms Wide Open (com Solo)