Standard tuning...half step down
( ) = pinch harmonic
Intro:
Db--6-6--6-6-6--6-6-6-6-6---3-3--3-3-3--3-3-3-3-3--|
Ab--6-4--4-6-4--4-6-4-4-4---3-1--1-3-1--1-3-1-1-1--|
Eb--4-4--4-4-4--4-4-4-4-4---1-1--1-1-1--1-1-1-1-1--|
Gb---------------------(4)--------------------------------|
Db--6-6--6-6-6--6-------3-3--3-3-3--3-3-3-3-3--|
Ab--6-4--4-6-4--4-------3-1--1-3-1--1-3-1-1-1--|
Eb--4-4--4-4-4--4-------1-1--1-1-1--1-1-1-1-1--|
Verse:
I?m not gonna try to type out the rhythm for the rest cause I?
m too tired but here?s the chords that?s played?
Just listen to the song?you?ll be able to get it
Db--8--6--11---6--|
Ab--8--6--11---6--|
Eb--6--4--9-----4--|
Db--8--4--3--|
Ab--8--4--3--|           x4
Eb--6--2--1--|
Chorus:
eb------4-------------|
Bb-------4------------|
Gb--6-----6----------|
Db--6---------8--4--|             x2
Ab--4---------8--4--|
Eb-------------6--2--|
Intro:
Gb---------------------------------------------------(4)--|
Db--6-6--6-6-6--6-6-6-6-6---3-3--3-3-3--3-------|
Ab--6-4--4-6-4--4-6-4-4-4---3-1--1-3-1--1-------|
Eb--4-4--4-4-4--4-4-4-4-4---1-1--1-1-1--1-------|
Db--6-6--6-6-6--6-------3-3--3-3-3--3-3-3-3-3--|
Ab--6-4--4-6-4--4-------3-1--1-3-1--1-3-1-1-1--|
Eb--4-4--4-4-4--4-------1-1--1-1-1--1-1-1-1-1--|
Verse x4
Chorus x4
Bridge:
Db--6--8--|
Ab--6--8--|    x5 I think  palm mute last time
Eb--4--6--|
Chours x4
Outro:
Gb---------------------------------------------------(4)--|
Db--6-6--6-6-6--6-6-6-6-6---3-3--3-3-3--3-------|
Ab--6-4--4-6-4--4-6-4-4-4---3-1--1-3-1--1-------|
Eb--4-4--4-4-4--4-4-4-4-4---1-1--1-1-1--1-------|
Db--6-6--6-6-6--6-------3-3--3-3-3--3-3-3-3-3--|
Ab--6-4--4-6-4--4-------3-1--1-3-1--1-3-1-1-1--|
Eb--4-4--4-4-4--4-------1-1--1-1-1--1-1-1-1-1--|