Essa Vers?o ? do CD com a Filarmonica de
Berlim.
riff para a Intro: toque 4 vezes
Ebm B Db Bbm Ebm B Db
eb|---0-------0-----------------------0-------0---------------------
Bb|-----0-------1-----3-------3---------0-------1-----------3-------
Gb|-------0-------0-----0-------0---------0-------0-----0-------0---
Db|-2---------------------4-------4-2-----------------4---4---4---4-
Ab|---------3-------5-------2---------------3-------5---------------
Eb|-----------------------------------------------------------------
riff para 1? e 3? Versos
Ebm B Db Bbm Ebm B Db
eb|---0-------0-------0-------0-------0-------0---------------------
Bb|-----0-------1-------3-------3-------0-------1-----------3-------
Gb|-------0-------0-------0-------0-------0-------0-----0-------0---
Db|-2-------------------------------2-----------------4---4---4---4-
Ab|---------3-------0-------2---------------3-------5---------------
Eb|-----------------------------------------------------------------
riff para 2?
Fm Db Eb Cm Fm Db Eb
eb|---2-------2-------2-------2-------2-------2---------------------
Bb|-----2-------3-------5-------5-------2-------3-----------5-------
Gb|-------2-------2-------2-------2-------2-------2-----2-------2---
Db|-4-------------------------------4-----------------6---6---6---6-
Ab|---------5-------2-------4---------------5-------7---------------
Eb|-----------------------------------------------------------------
}}|Intro: Ebm-B-Db-Bbm-Ebm-B-Db 4 vezes|{{
}}|1? Verso|{{
Ebm B Db Bbm
The wise man said just walk this way
Ebm B Db
To the dawn of the light
Ebm B Db Bbm
The wind will blow into your face
Ebm B Db
As the years pass you by
Ebm B Db Bbm
Hear this voice from deep inside
Ebm B Db
It's the call of your heart
Ebm B Db Bbm
Close your eyes and your will find
Ebm B Db
the way out of the dark
Fm Eb C
Here I am
Db Eb
Will you send me an angel
Fm Eb C
Here I am
Db Eb Fm
In the land of the morning star
}}|Fazer antes do refr?o: Fm-Db-Eb-Cm-Fm-Db-Eb 2 vezes|{{
}||2? Verso|{{
Fm Db Eb Cm
The wise man said just find your place
Fm Db Eb
In the eye of the storm
Fm Db Eb Cm
Seek the roses along the way.
Fm Db Eb
Just beware of the thorns
Gm F Dm
Here I am
Eb F
Will you send me an angel
Gm F Dm
Here I am
Eb F Ebm
In the land of the morning star
}}|Fazer p voltar: Ebm-B-Db-Bbm-Ebm-B-D 2 vezes|{{
}}|3? Verso|{{
Ebm B Db Bbm
The wise man said just raise your hand
Ebm B Db
And reach out for the spell
Ebm B Db Bbm
Find the door to the promised land
Ebm B Db
Just believe in yourself
Ebm B Db Bbm
Hear this voice from deep inside
Ebm B Db
It's the call of your heart
Ebm B Db Bbm
Close your eyes and you will find
Ebm B Db
the way out of the dark
Fm Eb Cm
Here I am
Db Eb
Will you send me an angel
Fm Eb Cm
Here I am
Db Eb Fm
In the land of the morning star
}}|Da? vc repete o refr?o at? voltar de novo, um tom acima|{{
Gm F Dm
Here I am
Eb F
Will you send me an angel
Gm F Dm
Here I am
Eb F Ebm
In the land of the morning star
}}|Repite as notas desse refr?o + 1 vez e termina|{{
[pret]