Jangan Ada Angkara
Nicky Astria
Intro:
Bm  A
(fill bass F# B C#)
Dsus5  A
Flute synth solo (arranged for guitar)
---------------------------------------------------------------
------15-12/14-12----------------------------------------------
------------------11--14--12h14p12/11--11br---------11---------
--16-----------------------------------------12--14-----12/14--
---------------------------------------------------------------
---------------------------------------------------------------
Verse :
Bm                 A
Saat hati tak lagi bernyanyi
Bm                  A
Mentari seakan kian sembunyi
D                       A          G  F#
Kutunggu kau tak datang jua menyapaku
Bm                   A
Kala badai gelombang mengguncang
Bm                   A
Panaskan hatiku yang kian bimbang
D               A                 G
Kucoba teguhkan harapan yang tersisa
        F#
tuk cintamu
Reff :
Bm     G      D     A
Jangan lagi ada angkara
Bm   G       A
Demi damai jiwaku
Bm     G      D        A
Jangan lagi ada Prasangka
Em               Bm   G     A         Bm  A  Dsus5  A
Yang kan menyiksamu demi cinta....kita
Flute synth solo (arranged for guitar) (Bm A Dsus5 A)
---------------------------------------------------------------
------15-12/14-12----------------------------------------------
------------------11--14--12h14p12/11--11br---------11---------
--16-----------------------------------------12--14-----12/14--
---------------------------------------------------------------
---------------------------------------------------------------
Verse 2 :
Bm                  A
Begitu banyak jalan berliku
Bm                     A
Jangan luruhkan tegarnya hatimu
D                   A             G
Dan kuatkan kembali setiap langkahmu
       F#
Bersamaku  ooOhh......
Reff
Bm     G      D     A
Jangan lagi ada angkara
Bm   G       A
Demi damai jiwaku...
Bm     G      D        A
Jangan lagi ada Prasangka
Em               Bm     G        A
Yang kan meny1ksamu dan resahkan jiwa
Bm     G      D     A
Jangan lagi ada angkara
Bm   G       A
Demi damai jiwaku...
Bm     G      D       A
Jangan lagi ada Prasangka
Em              Bm    G     A
Yang kan meny1ksamu demi cinta
           Bm
Cinta....kita
Solo Guitar
Bm  A  Bm  A
D  G  Em  C  G  A
-------------------------------------------------------------------
-------------------------------------------------------------------
-----------------------------------------------------------14br^^--
------------------------12-14-12-14br^^--14p12p11------------------
--/\14br^-14br/\---9/14----------------------------14br^^----------
-------------------------------------------------------------------
-------------------------------------------------------------------
-------------------------------------------------------------------
---14-11-----------14br^----14p12p11-------------------------------
---------14-12-14--------------------14p12p11--14/16--14-14br^^----
-------------------------------------------------------------------
-------------------------------------------------------------------
-------------------------------------------------------------------
-------------------------------------------------------------------
--11---11---11---11---11------12---12---12---12---12---------------
----12---12---12---12---12------12---12---12---12---12-------------
------12---12---12---12---12------14---14---14---14---14-----------
-------------------------------------------------------------------
-------------------------------------------------------------------
-------------------------------------------------------------------
--12---12---12---12---12------12---12---12---12---12---------------
----14---14---14---14---14------14---14---14---14---14-------------
------14---14---14---14---14------15---15---15---15---15-----------
-------------------------------------------------------------------
(fast picking)
---------------------------------15--18-17br^-----
--(12)--(12)--------------15-17-------------------
---12----12--------12/16--------------------------
--(12)--(12)--------------------------------------
--------------------------------------------------
--------------------------------------------------

Chord Nicky Astria - Jangan Ada Angkara