CHORDS USED:
E-|--0---0----2---0---1---1----0---1---3------|
B-|--1---1----0---1---3---1----0---1---0------|
G-|--2---0----2---0---2---2----1---2---0------|
D-|--2---2----1---2---0---0----0---1---0------|
A-|--0---0----2---3---X---0----2---3---2------|
E-|--0---0----X---0---X---X----0---1---3-----|
     Am  Am7  B7  C   Dm  Dm7  E7  F7  G
Intro
E-|---------------------------------------------------------|
A-|---------------------------------------------------------|
G-|--------------7-7h9----------7s9-7s5-------------------|
D-|---7---9--10---------7v---7-----------5v--------------|
A-|---------------------------------------------------------|
E-|---------------------------------------------------------|
E-|--------------------------------------------------------------|
A-|-------------------8-8s10---------8s10-8-8----8s10s5v----|
G-|-------7---9---10----------7-7v----------------------------|
D-|--7h9--------------------------------------------------------|
A-|-------------------------------------------------------------|
E-|-------------------------------------------------------------|
E-|--------------------------------------------------------------|
A-|--------5-5s6--5--------------------------------------------|
G-|--5h7--------------7v-5s7--5-----5-------------------------|
D-|------------------------------7-----7--5--------------------|
A-|------------------------------------------7-5v--------------|
E-|-------------------------------------------------------------|
Verse 1
         Am
Indah di mata
          Dm7
Indah di jiwa yang berahi
             G
Bagaikan di renda
C                            F7
Terpesona penuh asyik dan ku belai
           Dm
Sisir angin yang berbisik
        E7        B7
Buka rahsia kau kekasihku
Verse 2
       Am
Pecahan ombak
             Dm7
Yang menyentuh pipi ini
          G                  C
Pedih mata hati bagai ditusuk panah......duri
        F7
Dan ku sapu
          Dm
Kerna kabur pandangan ku
        E7            Am
Dalam langkah......tarian cinta mu
Chorus
        Dm               G
Duhai malam......tiada bintang
       C               F7
Menghiasi......taman kasih ini
         Dm             Am
Hanya aku......sendirian
         B7            E7
Tak berteman ......keseorangan
         Am            Dm
Kekasih aku......hanya aku
       G                 C
Yang memuja......sisa cinta ini
        F7             Dm
Seandainya......ombak laut
        B7              E7       Am7  B7
Surut lagi......aku pergi......
Kekasihku......oh......
Bridge
    Dm7           G             C
Seiring camar pulang...... setia pada janji
         Dm7            E7
Itu doa ku......selama ini
Back to chorus
Ending
        Am
Dari mata
       Dm7
Dari jiwa yang berahi
      G
Makin ku mengerti
      C
Istilah percintaan ini
        F7               Dm
Moga nanti......ada seru menyatakan
      E7                             Am
Kau kekasihku......hingga ke akhirnya
2X    (oh kekasih)

Chord Siti Nurhaliza - Kau Kekasihku